| Home | Fading Captain Series | GBV News | The Band | The Music | The Critics & Fans | Merchandise | Other Stuff |



Robert Pollard : Whiskey Ships (from Waved Out)

Tab by DouG
 

play this for the verses:

|------------------------|

|------------------------|

|--------------------5---|

|--0--0---2---0--0---5---|

|--X--X---X---X--X---3---|

|--3--3---3---3--3---3---|

 

G              G/F#              Eb     D

who knows when one of them will fall?

 

Party time riff:

|------------------------|

|------------------------|

|--4--4--3--2--0---0-----|

|---------------------0--|

|------------------------|

|------------------------|

 

(with party time riff)

C                             D

without them I go through it tall

C                               D

I hear the talking through the wall

G            G/F#             Eb

Without them Iím not brave at all

 

Thatís really all you need to know to play this one.


| Home | Fading Captain Series | GBV News | The Band | The Music | The Critics & Fans | Merchandise | Other Stuff |