| Home | Fading Captain Series | GBV News | The Band | The Music | The Critics & Fans | Merchandise | Other Stuff |



Guided By Voices : The Ids Are Alright (from Universal Truths and Cycles)

Tab by DouG

 

figure 1:

|--3---3---3----5---3----3---3----3--|

|--3---3---3----5---3----3---3----3--|

|--0---0---0----0---0----0---0----0--|

|--0---0---0----0---0----2---2----0--|

|--2---2---2-------------3---3----2--|

|--3---3---3----------------------3--|

 

figure 2:

|--3---3---3----5---3----3---3--|

|--3---3---3----5---3----3---3--|

|--0---0---0----0---0----0---0--|

|--0---0---0----0---0----2---2--|

|--2---2---2-------------3---3--|

|--3---3---3--------------------|

 

Intro:  Figure 1 once, Figure 2 once

        Figure 1 again, then F, then Bb

 

Verse:

(with figure 1)

how did I get to know ya?

 

(with figure 2)

How could I not?

 

D                      Em

All the time linking crimes in progress

 

       F

With previous foul-ups

 

           Cadd9

And we know secrets

 

            (with figure 1)  (with figure 2)

And perfect cures

 

     (with figure 2)

And once the answer to all Godís problems

 

   Bb                        Eb       

Escaped us as quickly as it came

 

            Cadd9

But thatís O.K.

 

        Eb                 Bb

Because all things happen

 

Chords used:

 Cadd9   Eb

|--3-----6----|

|--3-----6----|

|--0-----0----|

|--2-----5----|

|--3-----6----|

|-------------|

 


| Home | Fading Captain Series | GBV News | The Band | The Music | The Critics & Fans | Merchandise | Other Stuff |