| Home | Fading Captain Series | GBV News | The Band | The Music | The Critics & Fans | Merchandise | Other Stuff |



Robert Pollard with Doug Gillard: Same Things (from Speak Kindly of Your Volunteer Fire Department)

Tabbed by: Mike Velonas  Mail to: cultofray@hotmail.com

INTRO

|-----------------------------------------|

|-----------------------------------------|

|---2---------3-------------0---------0---|

|-----0---0-----0---0-----2---2-----0---0-|

|-------0---------0-----0---------2-------|

|-----------------------------------------|

VERSE

|-----------------------------------------|

|-----------------------------------------|

|---2---------3-------------0---------0---|

|-----0---0-----0---0-----2---2-----0---0-|

|-------0---------0-----0---------2-------|

|-----------------------------------------|

I listen to your conventional message

 

|-----------------------------------------|

|-----------------------------------------|

|---2---------3-------------0---------0---|

|-----0---0-----0---0-----2---2-----2---2-| repeat last bit 2X more

|-------0---------0-----0---------0-------|

|-----------------------------------------|

The same things that allure me, assure me

CHORUS

G D

Iím not getting in or through

G Bb

going nowhere faster than most

 

VERSE

|-----------------------------------------|

|-----------------------------------------|

|---2---------3-------------0---------0---|

|-----0---0-----0---0-----2---2-----0---0-|

|-------0---------0-----0---------2-------|

|-----------------------------------------|

Thatís the way the eyecrust crumbles

|-------------------------------------------|

|-------------------------------------------|

|---2---------3-------------0-----------0---|

|-----0---0-----0---0-----2---2-----0h2---2-| repeat the last bit 2X

|-------0---------0-----0---------0---------|

|-------------------------------------------|

the everlasting holyman stumbles

CHORUS

G D

a thread of resistance contains me

G Bb

your unwanted assistance often restrains me

 

OUTRO

*Same as intro, but with some finishing chord I didn't figure out. I am lazy. But if anyone knows it, please feel free to email me*


| Home | Fading Captain Series | GBV News | The Band | The Music | The Critics & Fans | Merchandise | Other Stuff |