| Home | Fading Captain Series | GBV News | The Band | The Music | The Critics & Fans | Merchandise | Other Stuff |



Guided By Voices : I'll Replace You With Machines (from Earthquake Glue)

Tab by DouG
 

riff 1:

Gtr 1 (nate)

|---------------------------------------------------|

|---------------------------------------------------|

|---------------------------------------------------|

|--2---2---2---2----7---7---7---7----9---9---9---9--|

|--0---0---0---0----0---0---0---0----0---0---0---0--|

|---------------------------------------------------|

Gtr 2 (doug)                                        |

|---------------------------------------------------|

|---------------------------------------------------|

|---------------------------------------------------|

|-11--11--11--11---12--12--12--12---14--14--14--14--|

|--0---0---0---0----0---0---0---0----0---0---0---0--|

|---------------------------------------------------|

 

riff 2:

|--------------------------|

|--------------------------|

|--7--7--7--7--7--7--7--7--|

|--7--7--7--7--7--7--7--7--|

|--0--0--0--0--0--0--0--0--|

|--------------------------|

riff 3:

|----------------------------------|

|----------------------------------|

|--12--12--12--12--12--12--12--12--|

|--12--12--12--12--12--12--12--12--|

|---0---0---0---0---0---0---0---0--|

|----------------------------------|

 

Verse Figure:

|-------------------------------------------3----0----3----0--|

|--10--10--10--10--------3--3--3--3---------3----2----3----2--|

|---9---9---9---9--(2x)--2--2--2--2--(2x)---0----2----0----2--|

|---0---0---0---0--------0--0--0--0---------0----2----0----2--|

|-------------------------------------------2----0----2----0--|

|-------------------------------------------3---------3-------|

PALM MUTE--------------------------|

 

So the intro goes like this:

Riff 1 (3x)

Riff 2 (1x)

Riff 3 (1x)

G  A   (2x)

Verse Figure (2x)

 

Verse 1 (with Verse Figure 2x):

It sends the letter, may the deal go sour

Unpacked of golden seal, postmarked

          C                     G    A

Ainít it funny how it gets there

          D            E

When you say it never does?

 

  G/A

|--7----------------|

|--8----------------|

|--7----------------|

|--9----(strum)-----|

|--0----------------|

|-------------------|

Iíll replace you with machines

 

(with Riff 1)   G/A

I        canít face you

 


| Home | Fading Captain Series | GBV News | The Band | The Music | The Critics & Fans | Merchandise | Other Stuff |