| Home | Fading Captain Series | GBV News | The Band | The Music | The Critics & Fans | Merchandise | Other Stuff |



Robert Pollard : Harrison Adams (from Motel of Fools)

Tab by DouG

 

intro riff:

|---------------------------|

|---------------------------|

|-----------0---------0-----|

|--------0---------0--------|

|-----2---------------------|

|--3-----------0---------0--|

 

G chord riff:

|---------------------------|

|---------------------------|

|--------0----------0-------|

|-----0----------0----------|

|---------------------------|

|--3---------0----------0---|

 

C chord riff:

|------------------------|

|--------1---------1-----|

|-----0---------0--------|

|------------------------|

|--3---------0--------0--|

|------------------------|

 

(play intro riff once, then G chord riff 3x)

 

with G chord riff

there he sits guardian the fish market

 

with C chord riff

splitting hairs and atoms, eying the salt target

 

with G chord riff

please to preach, Harrison Adams

 

with C chord riff

son of a jack poker, panting like a ram worker

 

  D                  C

Arise, give into the umpire

         G      D

Feel his air

   Am                    D

Relax, thatís where we stay (he says)

G                      C      Am

You arenít happy with me, and I know it

     G                    C

And you are the world to me

    Am             D      Am

But itís all gone now

               G

Itís all gone now

 

The rest of the song is the same

For the end, just keep strumming a G


| Home | Fading Captain Series | GBV News | The Band | The Music | The Critics & Fans | Merchandise | Other Stuff |